ISO-10303-21;
HEADER;
/* Generated by software containing ST-Developer
 * from STEP Tools, Inc. (www.steptools.com) 
 */
/* OPTION: using custom schema-name function */

FILE_DESCRIPTION(
/* description */ (''),
/* implementation_level */ '2;1');

FILE_NAME(
/* name */ 'pewag_WOX-S_5x15-6.stp',
/* time_stamp */ '2022-07-04T09:41:13+02:00',
/* author */ (''),
/* organization */ (''),
/* preprocessor_version */ 'ST-DEVELOPER v16',
/* originating_system */ 'SIEMENS PLM Software NX 11.0',
/* authorisation */ '');

FILE_SCHEMA (('AUTOMOTIVE_DESIGN { 1 0 10303 214 3 1 1 1 }'));
ENDSEC;

DATA;
#10=PROPERTY_DEFINITION_REPRESENTATION(#14,#12);
#11=PROPERTY_DEFINITION_REPRESENTATION(#15,#13);
#12=REPRESENTATION('',(#16),#394);
#13=REPRESENTATION('',(#17),#394);
#14=PROPERTY_DEFINITION('pmi validation property','',#21);
#15=PROPERTY_DEFINITION('pmi validation property','',#21);
#16=VALUE_REPRESENTATION_ITEM('number of annotations',COUNT_MEASURE(0.));
#17=VALUE_REPRESENTATION_ITEM('number of views',COUNT_MEASURE(0.));
#18=SHAPE_REPRESENTATION_RELATIONSHIP('None',
'relationship between KSE45005245hhgs-None and KSE45005245hhgs-None',#30,
#19);
#19=ADVANCED_BREP_SHAPE_REPRESENTATION('KSE45005245hhgs-None',(#61,#62,
#63,#64),#394);
#20=SHAPE_DEFINITION_REPRESENTATION(#21,#30);
#21=PRODUCT_DEFINITION_SHAPE('','',#22);
#22=PRODUCT_DEFINITION(' ','',#24,#23);
#23=PRODUCT_DEFINITION_CONTEXT('part definition',#29,'design');
#24=PRODUCT_DEFINITION_FORMATION_WITH_SPECIFIED_SOURCE(' ',' ',#26,
 .NOT_KNOWN.);
#25=PRODUCT_RELATED_PRODUCT_CATEGORY('part','',(#26));
#26=PRODUCT('KSE45005245hhgs','KSE45005245hhgs',' ',(#27));
#27=PRODUCT_CONTEXT(' ',#29,'mechanical');
#28=APPLICATION_PROTOCOL_DEFINITION('international standard',
'automotive_design',2010,#29);
#29=APPLICATION_CONTEXT(
'core data for automotive mechanical design processes');
#30=SHAPE_REPRESENTATION('KSE45005245hhgs-None',(#245),#394);
#31=PRESENTATION_LAYER_ASSIGNMENT('90','Layer 90',(#61,#62,#63,#64));
#32=STYLED_ITEM('',(#36),#61);
#33=STYLED_ITEM('',(#37),#62);
#34=STYLED_ITEM('',(#38),#63);
#35=STYLED_ITEM('',(#39),#64);
#36=PRESENTATION_STYLE_ASSIGNMENT((#40));
#37=PRESENTATION_STYLE_ASSIGNMENT((#41));
#38=PRESENTATION_STYLE_ASSIGNMENT((#42));
#39=PRESENTATION_STYLE_ASSIGNMENT((#43));
#40=SURFACE_STYLE_USAGE(.BOTH.,#44);
#41=SURFACE_STYLE_USAGE(.BOTH.,#45);
#42=SURFACE_STYLE_USAGE(.BOTH.,#46);
#43=SURFACE_STYLE_USAGE(.BOTH.,#47);
#44=SURFACE_SIDE_STYLE('',(#48));
#45=SURFACE_SIDE_STYLE('',(#49));
#46=SURFACE_SIDE_STYLE('',(#50));
#47=SURFACE_SIDE_STYLE('',(#51));
#48=SURFACE_STYLE_FILL_AREA(#52);
#49=SURFACE_STYLE_FILL_AREA(#53);
#50=SURFACE_STYLE_FILL_AREA(#54);
#51=SURFACE_STYLE_FILL_AREA(#55);
#52=FILL_AREA_STYLE('',(#56));
#53=FILL_AREA_STYLE('',(#57));
#54=FILL_AREA_STYLE('',(#58));
#55=FILL_AREA_STYLE('',(#59));
#56=FILL_AREA_STYLE_COLOUR('',#60);
#57=FILL_AREA_STYLE_COLOUR('',#60);
#58=FILL_AREA_STYLE_COLOUR('',#60);
#59=FILL_AREA_STYLE_COLOUR('',#60);
#60=COLOUR_RGB('Silver Gray',0.6,0.6,0.6);
#61=MANIFOLD_SOLID_BREP('',#65);
#62=MANIFOLD_SOLID_BREP('',#66);
#63=MANIFOLD_SOLID_BREP('',#67);
#64=MANIFOLD_SOLID_BREP('',#68);
#65=CLOSED_SHELL('',(#77,#78,#79,#80));
#66=CLOSED_SHELL('',(#81,#82,#83,#84));
#67=CLOSED_SHELL('',(#85,#86,#87,#88));
#68=CLOSED_SHELL('',(#89,#90,#91,#92));
#69=TOROIDAL_SURFACE('',#250,5.5,2.5);
#70=TOROIDAL_SURFACE('',#253,5.5,2.5);
#71=TOROIDAL_SURFACE('',#258,5.50000000000002,2.5);
#72=TOROIDAL_SURFACE('',#261,5.50000000000002,2.5);
#73=TOROIDAL_SURFACE('',#266,5.5,2.5);
#74=TOROIDAL_SURFACE('',#269,5.49999999999999,2.5);
#75=TOROIDAL_SURFACE('',#274,5.5,2.5);
#76=TOROIDAL_SURFACE('',#277,5.5,2.5);
#77=ADVANCED_FACE('',(#101,#102),#93,.T.);
#78=ADVANCED_FACE('',(#103,#104),#69,.T.);
#79=ADVANCED_FACE('',(#105,#106),#94,.T.);
#80=ADVANCED_FACE('',(#107,#108),#70,.T.);
#81=ADVANCED_FACE('',(#109,#110),#95,.T.);
#82=ADVANCED_FACE('',(#111,#112),#71,.T.);
#83=ADVANCED_FACE('',(#113,#114),#96,.T.);
#84=ADVANCED_FACE('',(#115,#116),#72,.T.);
#85=ADVANCED_FACE('',(#117,#118),#97,.T.);
#86=ADVANCED_FACE('',(#119,#120),#73,.T.);
#87=ADVANCED_FACE('',(#121,#122),#98,.T.);
#88=ADVANCED_FACE('',(#123,#124),#74,.T.);
#89=ADVANCED_FACE('',(#125,#126),#99,.T.);
#90=ADVANCED_FACE('',(#127,#128),#75,.T.);
#91=ADVANCED_FACE('',(#129,#130),#100,.T.);
#92=ADVANCED_FACE('',(#131,#132),#76,.T.);
#93=CYLINDRICAL_SURFACE('',#248,2.5);
#94=CYLINDRICAL_SURFACE('',#252,2.5);
#95=CYLINDRICAL_SURFACE('',#256,2.5);
#96=CYLINDRICAL_SURFACE('',#260,2.5);
#97=CYLINDRICAL_SURFACE('',#264,2.5);
#98=CYLINDRICAL_SURFACE('',#268,2.5);
#99=CYLINDRICAL_SURFACE('',#272,2.5);
#100=CYLINDRICAL_SURFACE('',#276,2.5);
#101=FACE_BOUND('',#133,.T.);
#102=FACE_BOUND('',#134,.T.);
#103=FACE_BOUND('',#135,.T.);
#104=FACE_BOUND('',#136,.T.);
#105=FACE_BOUND('',#137,.T.);
#106=FACE_BOUND('',#138,.T.);
#107=FACE_BOUND('',#139,.T.);
#108=FACE_BOUND('',#140,.T.);
#109=FACE_BOUND('',#141,.T.);
#110=FACE_BOUND('',#142,.T.);
#111=FACE_BOUND('',#143,.T.);
#112=FACE_BOUND('',#144,.T.);
#113=FACE_BOUND('',#145,.T.);
#114=FACE_BOUND('',#146,.T.);
#115=FACE_BOUND('',#147,.T.);
#116=FACE_BOUND('',#148,.T.);
#117=FACE_BOUND('',#149,.T.);
#118=FACE_BOUND('',#150,.T.);
#119=FACE_BOUND('',#151,.T.);
#120=FACE_BOUND('',#152,.T.);
#121=FACE_BOUND('',#153,.T.);
#122=FACE_BOUND('',#154,.T.);
#123=FACE_BOUND('',#155,.T.);
#124=FACE_BOUND('',#156,.T.);
#125=FACE_BOUND('',#157,.T.);
#126=FACE_BOUND('',#158,.T.);
#127=FACE_BOUND('',#159,.T.);
#128=FACE_BOUND('',#160,.T.);
#129=FACE_BOUND('',#161,.T.);
#130=FACE_BOUND('',#162,.T.);
#131=FACE_BOUND('',#163,.T.);
#132=FACE_BOUND('',#164,.T.);
#133=EDGE_LOOP('',(#165));
#134=EDGE_LOOP('',(#166));
#135=EDGE_LOOP('',(#167));
#136=EDGE_LOOP('',(#168));
#137=EDGE_LOOP('',(#169));
#138=EDGE_LOOP('',(#170));
#139=EDGE_LOOP('',(#171));
#140=EDGE_LOOP('',(#172));
#141=EDGE_LOOP('',(#173));
#142=EDGE_LOOP('',(#174));
#143=EDGE_LOOP('',(#175));
#144=EDGE_LOOP('',(#176));
#145=EDGE_LOOP('',(#177));
#146=EDGE_LOOP('',(#178));
#147=EDGE_LOOP('',(#179));
#148=EDGE_LOOP('',(#180));
#149=EDGE_LOOP('',(#181));
#150=EDGE_LOOP('',(#182));
#151=EDGE_LOOP('',(#183));
#152=EDGE_LOOP('',(#184));
#153=EDGE_LOOP('',(#185));
#154=EDGE_LOOP('',(#186));
#155=EDGE_LOOP('',(#187));
#156=EDGE_LOOP('',(#188));
#157=EDGE_LOOP('',(#189));
#158=EDGE_LOOP('',(#190));
#159=EDGE_LOOP('',(#191));
#160=EDGE_LOOP('',(#192));
#161=EDGE_LOOP('',(#193));
#162=EDGE_LOOP('',(#194));
#163=EDGE_LOOP('',(#195));
#164=EDGE_LOOP('',(#196));
#165=ORIENTED_EDGE('',*,*,#213,.T.);
#166=ORIENTED_EDGE('',*,*,#214,.F.);
#167=ORIENTED_EDGE('',*,*,#215,.T.);
#168=ORIENTED_EDGE('',*,*,#213,.F.);
#169=ORIENTED_EDGE('',*,*,#215,.F.);
#170=ORIENTED_EDGE('',*,*,#216,.T.);
#171=ORIENTED_EDGE('',*,*,#216,.F.);
#172=ORIENTED_EDGE('',*,*,#214,.T.);
#173=ORIENTED_EDGE('',*,*,#217,.T.);
#174=ORIENTED_EDGE('',*,*,#218,.F.);
#175=ORIENTED_EDGE('',*,*,#219,.T.);
#176=ORIENTED_EDGE('',*,*,#217,.F.);
#177=ORIENTED_EDGE('',*,*,#220,.T.);
#178=ORIENTED_EDGE('',*,*,#219,.F.);
#179=ORIENTED_EDGE('',*,*,#220,.F.);
#180=ORIENTED_EDGE('',*,*,#218,.T.);
#181=ORIENTED_EDGE('',*,*,#221,.T.);
#182=ORIENTED_EDGE('',*,*,#222,.F.);
#183=ORIENTED_EDGE('',*,*,#223,.T.);
#184=ORIENTED_EDGE('',*,*,#221,.F.);
#185=ORIENTED_EDGE('',*,*,#223,.F.);
#186=ORIENTED_EDGE('',*,*,#224,.T.);
#187=ORIENTED_EDGE('',*,*,#224,.F.);
#188=ORIENTED_EDGE('',*,*,#222,.T.);
#189=ORIENTED_EDGE('',*,*,#225,.T.);
#190=ORIENTED_EDGE('',*,*,#226,.F.);
#191=ORIENTED_EDGE('',*,*,#227,.T.);
#192=ORIENTED_EDGE('',*,*,#225,.F.);
#193=ORIENTED_EDGE('',*,*,#228,.T.);
#194=ORIENTED_EDGE('',*,*,#227,.F.);
#195=ORIENTED_EDGE('',*,*,#228,.F.);
#196=ORIENTED_EDGE('',*,*,#226,.T.);
#197=VERTEX_POINT('',#346);
#198=VERTEX_POINT('',#348);
#199=VERTEX_POINT('',#351);
#200=VERTEX_POINT('',#354);
#201=VERTEX_POINT('',#358);
#202=VERTEX_POINT('',#360);
#203=VERTEX_POINT('',#363);
#204=VERTEX_POINT('',#366);
#205=VERTEX_POINT('',#370);
#206=VERTEX_POINT('',#372);
#207=VERTEX_POINT('',#375);
#208=VERTEX_POINT('',#378);
#209=VERTEX_POINT('',#382);
#210=VERTEX_POINT('',#384);
#211=VERTEX_POINT('',#387);
#212=VERTEX_POINT('',#390);
#213=EDGE_CURVE('',#197,#197,#229,.T.);
#214=EDGE_CURVE('',#198,#198,#230,.T.);
#215=EDGE_CURVE('',#199,#199,#231,.T.);
#216=EDGE_CURVE('',#200,#200,#232,.T.);
#217=EDGE_CURVE('',#201,#201,#233,.T.);
#218=EDGE_CURVE('',#202,#202,#234,.T.);
#219=EDGE_CURVE('',#203,#203,#235,.T.);
#220=EDGE_CURVE('',#204,#204,#236,.T.);
#221=EDGE_CURVE('',#205,#205,#237,.T.);
#222=EDGE_CURVE('',#206,#206,#238,.T.);
#223=EDGE_CURVE('',#207,#207,#239,.T.);
#224=EDGE_CURVE('',#208,#208,#240,.T.);
#225=EDGE_CURVE('',#209,#209,#241,.T.);
#226=EDGE_CURVE('',#210,#210,#242,.T.);
#227=EDGE_CURVE('',#211,#211,#243,.T.);
#228=EDGE_CURVE('',#212,#212,#244,.T.);
#229=CIRCLE('',#246,2.5);
#230=CIRCLE('',#247,2.5);
#231=CIRCLE('',#249,2.5);
#232=CIRCLE('',#251,2.5);
#233=CIRCLE('',#254,2.5);
#234=CIRCLE('',#255,2.5);
#235=CIRCLE('',#257,2.5);
#236=CIRCLE('',#259,2.5);
#237=CIRCLE('',#262,2.5);
#238=CIRCLE('',#263,2.5);
#239=CIRCLE('',#265,2.5);
#240=CIRCLE('',#267,2.5);
#241=CIRCLE('',#270,2.5);
#242=CIRCLE('',#271,2.5);
#243=CIRCLE('',#273,2.5);
#244=CIRCLE('',#275,2.5);
#245=AXIS2_PLACEMENT_3D('',#344,#278,#279);
#246=AXIS2_PLACEMENT_3D('',#345,#280,#281);
#247=AXIS2_PLACEMENT_3D('',#347,#282,#283);
#248=AXIS2_PLACEMENT_3D('',#349,#284,#285);
#249=AXIS2_PLACEMENT_3D('',#350,#286,#287);
#250=AXIS2_PLACEMENT_3D('',#352,#288,#289);
#251=AXIS2_PLACEMENT_3D('',#353,#290,#291);
#252=AXIS2_PLACEMENT_3D('',#355,#292,#293);
#253=AXIS2_PLACEMENT_3D('',#356,#294,#295);
#254=AXIS2_PLACEMENT_3D('',#357,#296,#297);
#255=AXIS2_PLACEMENT_3D('',#359,#298,#299);
#256=AXIS2_PLACEMENT_3D('',#361,#300,#301);
#257=AXIS2_PLACEMENT_3D('',#362,#302,#303);
#258=AXIS2_PLACEMENT_3D('',#364,#304,#305);
#259=AXIS2_PLACEMENT_3D('',#365,#306,#307);
#260=AXIS2_PLACEMENT_3D('',#367,#308,#309);
#261=AXIS2_PLACEMENT_3D('',#368,#310,#311);
#262=AXIS2_PLACEMENT_3D('',#369,#312,#313);
#263=AXIS2_PLACEMENT_3D('',#371,#314,#315);
#264=AXIS2_PLACEMENT_3D('',#373,#316,#317);
#265=AXIS2_PLACEMENT_3D('',#374,#318,#319);
#266=AXIS2_PLACEMENT_3D('',#376,#320,#321);
#267=AXIS2_PLACEMENT_3D('',#377,#322,#323);
#268=AXIS2_PLACEMENT_3D('',#379,#324,#325);
#269=AXIS2_PLACEMENT_3D('',#380,#326,#327);
#270=AXIS2_PLACEMENT_3D('',#381,#328,#329);
#271=AXIS2_PLACEMENT_3D('',#383,#330,#331);
#272=AXIS2_PLACEMENT_3D('',#385,#332,#333);
#273=AXIS2_PLACEMENT_3D('',#386,#334,#335);
#274=AXIS2_PLACEMENT_3D('',#388,#336,#337);
#275=AXIS2_PLACEMENT_3D('',#389,#338,#339);
#276=AXIS2_PLACEMENT_3D('',#391,#340,#341);
#277=AXIS2_PLACEMENT_3D('',#392,#342,#343);
#278=DIRECTION('',(0.,0.,1.));
#279=DIRECTION('',(1.,0.,0.));
#280=DIRECTION('',(1.,1.01064309961486E-15,0.));
#281=DIRECTION('',(0.,0.,1.));
#282=DIRECTION('',(1.,1.01064309961486E-15,0.));
#283=DIRECTION('',(0.,0.,1.));
#284=DIRECTION('',(1.,-1.97372982155583E-16,0.));
#285=DIRECTION('',(3.46944695195361E-16,1.,0.));
#286=DIRECTION('',(-1.,0.,0.));
#287=DIRECTION('',(0.,0.,1.));
#288=DIRECTION('',(0.,0.,-1.));
#289=DIRECTION('',(-1.,0.,0.));
#290=DIRECTION('',(-1.,0.,0.));
#291=DIRECTION('',(0.,0.,1.));
#292=DIRECTION('',(1.,0.,0.));
#293=DIRECTION('',(0.,0.,-1.));
#294=DIRECTION('',(0.,0.,1.));
#295=DIRECTION('',(1.,0.,0.));
#296=DIRECTION('',(-1.,-2.77555756156289E-17,-6.47191593105347E-16));
#297=DIRECTION('',(0.,0.,1.));
#298=DIRECTION('',(-1.,-2.77555756156289E-17,-4.02262233275876E-16));
#299=DIRECTION('',(-6.93889390390723E-16,0.,1.));
#300=DIRECTION('',(-1.,6.83323767939711E-15,-9.86864910777923E-16));
#301=DIRECTION('',(-6.93889390390723E-15,-1.,0.));
#302=DIRECTION('',(1.,2.77555756156288E-17,1.8569945427408E-15));
#303=DIRECTION('',(1.38777878078145E-15,1.22460635382239E-16,-1.));
#304=DIRECTION('',(-2.77555756156289E-17,1.,6.12303176911189E-17));
#305=DIRECTION('',(0.,-6.12303176911191E-17,1.));
#306=DIRECTION('',(1.,2.77555756156288E-17,1.8569945427408E-15));
#307=DIRECTION('',(2.08166817117217E-15,1.22460635382239E-16,-1.));
#308=DIRECTION('',(1.,4.69562660359518E-16,9.86864910777923E-16));
#309=DIRECTION('',(6.93889390390723E-16,0.,-1.));
#310=DIRECTION('',(2.77555756156289E-17,-1.,-6.12303176911189E-17));
#311=DIRECTION('',(0.,6.12303176911191E-17,-1.));
#312=DIRECTION('',(1.,-1.31984247477221E-14,-6.00773287487117E-14));
#313=DIRECTION('',(5.96744875736022E-14,-3.46944695195361E-16,1.));
#314=DIRECTION('',(1.,-1.31984247477221E-14,-6.00773287487117E-14));
#315=DIRECTION('',(6.10622663543836E-14,-3.46944695195361E-16,1.));
#316=DIRECTION('',(1.,-1.4210854715202E-14,6.51222632305282E-14));
#317=DIRECTION('',(6.52256026967279E-14,0.,-1.));
#318=DIRECTION('',(-1.,1.26318708579573E-14,-5.30825113190375E-14));
#319=DIRECTION('',(-5.27355936696949E-14,0.,1.));
#320=DIRECTION('',(3.49740871483706E-15,-1.26957583841591E-16,1.));
#321=DIRECTION('',(1.,0.,-3.49740871483706E-15));
#322=DIRECTION('',(-1.,1.26318708579573E-14,-5.30825113190375E-14));
#323=DIRECTION('',(-5.27355936696949E-14,0.,1.));
#324=DIRECTION('',(1.,-1.26318708579573E-14,5.30825113190375E-14));
#325=DIRECTION('',(5.27355936696949E-14,0.,-1.));
#326=DIRECTION('',(-3.49740871483706E-15,1.26957583841591E-16,-1.));
#327=DIRECTION('',(-1.,0.,3.49740871483705E-15));
#328=DIRECTION('',(1.,0.,-1.96005385927235E-15));
#329=DIRECTION('',(-1.38777878078145E-15,0.,-1.));
#330=DIRECTION('',(1.,0.,6.12323399573677E-17));
#331=DIRECTION('',(0.,0.,-1.));
#332=DIRECTION('',(1.,8.99589045230993E-17,3.94745964311167E-16));
#333=DIRECTION('',(0.,0.,-1.));
#334=DIRECTION('',(-1.,0.,9.49410759657493E-16));
#335=DIRECTION('',(1.38777878078145E-15,0.,1.));
#336=DIRECTION('',(0.,-1.,0.));
#337=DIRECTION('',(0.,0.,-1.));
#338=DIRECTION('',(-1.,0.,9.49410759657493E-16));
#339=DIRECTION('',(6.93889390390723E-16,0.,1.));
#340=DIRECTION('',(-1.,-2.01434548054004E-15,-9.86864910777917E-17));
#341=DIRECTION('',(2.08166817117217E-15,-1.,0.));
#342=DIRECTION('',(0.,1.,0.));
#343=DIRECTION('',(0.,0.,1.));
#344=CARTESIAN_POINT('',(0.,0.,0.));
#345=CARTESIAN_POINT('',(-4.50000000000001,5.5,0.));
#346=CARTESIAN_POINT('',(-4.50000000000001,5.5,2.5));
#347=CARTESIAN_POINT('',(4.5,5.5,0.));
#348=CARTESIAN_POINT('',(4.5,5.5,2.5));
#349=CARTESIAN_POINT('',(-4.50000000000001,5.5,0.));
#350=CARTESIAN_POINT('',(-4.5,-5.5,0.));
#351=CARTESIAN_POINT('',(-4.5,-5.5,2.5));
#352=CARTESIAN_POINT('',(-4.5,0.,0.));
#353=CARTESIAN_POINT('',(4.5,-5.5,0.));
#354=CARTESIAN_POINT('',(4.5,-5.5,2.5));
#355=CARTESIAN_POINT('',(-4.5,-5.5,0.));
#356=CARTESIAN_POINT('',(4.5,0.,0.));
#357=CARTESIAN_POINT('',(19.5,2.28105192939607E-13,-5.50000000000002));
#358=CARTESIAN_POINT('',(19.5,2.28105192939607E-13,-3.00000000000002));
#359=CARTESIAN_POINT('',(10.5,2.23879128996372E-13,-5.50000000000002));
#360=CARTESIAN_POINT('',(10.5,2.23879128996372E-13,-3.00000000000002));
#361=CARTESIAN_POINT('',(19.5,2.28105192939607E-13,-5.50000000000002));
#362=CARTESIAN_POINT('',(19.5,2.27431659445005E-13,5.50000000000003));
#363=CARTESIAN_POINT('',(19.5,2.27737811033461E-13,3.00000000000003));
#364=CARTESIAN_POINT('',(19.5,2.27768426192306E-13,6.93889390390723E-15));
#365=CARTESIAN_POINT('',(10.5,2.2320559550177E-13,5.50000000000002));
#366=CARTESIAN_POINT('',(10.5,2.23511747090225E-13,3.00000000000002));
#367=CARTESIAN_POINT('',(10.5,2.2320559550177E-13,5.50000000000002));
#368=CARTESIAN_POINT('',(10.5,2.23542362249071E-13,8.67361737988404E-16));
#369=CARTESIAN_POINT('',(25.4999999999999,-5.49999999999997,7.21445161266008E-13));
#370=CARTESIAN_POINT('',(25.5000000000001,-5.49999999999997,2.50000000000072));
#371=CARTESIAN_POINT('',(34.4999999999999,-5.50000000000009,1.23471489992535E-12));
#372=CARTESIAN_POINT('',(34.5000000000001,-5.50000000000009,2.50000000000123));
#373=CARTESIAN_POINT('',(25.4999999999999,-5.49999999999997,7.21445161266008E-13));
#374=CARTESIAN_POINT('',(25.5000000000001,5.50000000000002,7.22841694688266E-13));
#375=CARTESIAN_POINT('',(25.4999999999999,5.50000000000002,2.50000000000072));
#376=CARTESIAN_POINT('',(25.5,2.68882138776405E-14,7.22143427977137E-13));
#377=CARTESIAN_POINT('',(34.5000000000001,5.49999999999991,1.2005842965596E-12));
#378=CARTESIAN_POINT('',(34.4999999999999,5.49999999999991,2.5000000000012));
#379=CARTESIAN_POINT('',(25.5000000000001,5.50000000000002,7.22841694688266E-13));
#380=CARTESIAN_POINT('',(34.5,-9.97465998686664E-14,1.23541316663648E-12));
#381=CARTESIAN_POINT('',(-19.5,-1.30135447901975E-14,-5.5));
#382=CARTESIAN_POINT('',(-19.5,-1.30135447901975E-14,-8.));
#383=CARTESIAN_POINT('',(-10.5,5.11556453466279E-15,-5.5));
#384=CARTESIAN_POINT('',(-10.5,5.11556453466279E-15,-8.));
#385=CARTESIAN_POINT('',(-19.5,-1.30135447901975E-14,-5.5));
#386=CARTESIAN_POINT('',(-19.5,-1.30135447901975E-14,5.5));
#387=CARTESIAN_POINT('',(-19.5,-1.30135447901975E-14,8.));
#388=CARTESIAN_POINT('',(-19.5,-1.30135447901975E-14,8.67361737988404E-16));
#389=CARTESIAN_POINT('',(-10.5,5.11556453466279E-15,5.5));
#390=CARTESIAN_POINT('',(-10.5,5.11556453466279E-15,8.));
#391=CARTESIAN_POINT('',(-10.5,5.11556453466279E-15,5.5));
#392=CARTESIAN_POINT('',(-10.5,5.11556453466279E-15,0.));
#393=MECHANICAL_DESIGN_GEOMETRIC_PRESENTATION_REPRESENTATION('',(#32,#33,
#34,#35),#394);
#394=(
GEOMETRIC_REPRESENTATION_CONTEXT(3)
GLOBAL_UNCERTAINTY_ASSIGNED_CONTEXT((#395))
GLOBAL_UNIT_ASSIGNED_CONTEXT((#401,#397,#396))
REPRESENTATION_CONTEXT('pewag_WOX-S_5x15-6','TOP_LEVEL_ASSEMBLY_PART')
);
#395=UNCERTAINTY_MEASURE_WITH_UNIT(LENGTH_MEASURE(2.E-5),#401,
'DISTANCE_ACCURACY_VALUE','Maximum Tolerance applied to model');
#396=(
NAMED_UNIT(*)
SI_UNIT($,.STERADIAN.)
SOLID_ANGLE_UNIT()
);
#397=(
CONVERSION_BASED_UNIT('DEGREE',#399)
NAMED_UNIT(#398)
PLANE_ANGLE_UNIT()
);
#398=DIMENSIONAL_EXPONENTS(0.,0.,0.,0.,0.,0.,0.);
#399=PLANE_ANGLE_MEASURE_WITH_UNIT(PLANE_ANGLE_MEASURE(0.0174532925),#400);
#400=(
NAMED_UNIT(*)
PLANE_ANGLE_UNIT()
SI_UNIT($,.RADIAN.)
);
#401=(
LENGTH_UNIT()
NAMED_UNIT(*)
SI_UNIT(.MILLI.,.METRE.)
);
ENDSEC;
END-ISO-10303-21;
